Gramy happysad?

Wysłane przez Sinu 
Forum jest aktualnie w trybie tylko do odczytu. Nie można się logować ani dokonywać żadnych zmian. Zapraszamy ponownie za jakiś czas.
Gramy happysad?
17 kwi 2004 - 17:19:57
Otóż nie gramy:) bo mimo próśb ( znalazłem kilka na tej strone :) nie podajecie akordów ( ani tabów - miło by było ) do swoich piosenek...

NIebądźcie samoluby i podzielcie sie z innymi :)

Jeśli ktoś sobie tabował, albo podpatrywał to wpisujcie tutaj:
ja zacznę:
Miłosć: cały czas; a d e - na pstatnie wersy refrenu refrenu jest przejście : G C F

pozdrawiam



Zmieniany 2 raz(y). Ostatnia zmiana 2004-09-02 23:08 przez cegla.
Re: Gramy happysad?
17 kwi 2004 - 18:02:19
ooooo nareszcie ktoś rozsądnie gada:) od jakiegoś czasu męczę ludzi ( w tym samych grajków z zespołu) żeby mi pomogli, bo niestety sam nie umiem stabować nic prawie

jakby ktoś wiedział jak zagrać 100lat, albo solówki w miłość, blok i czołg, to byłoby great:)
pozdrawiam.

Re: Gramy happysad?
17 kwi 2004 - 19:04:44
dobra ja coś mam... To jak myśle Psychologa (Yntro) hehe

----7-7-7-7-5-5-7-8--- x3
----7-7-7-7-5-5--7----

No to tyle... hehe





W świecie, w którym nikt nie jest moim królem też nie jestem - nie jestem, nie ...
Re: Gramy happysad?
17 kwi 2004 - 19:07:12
tzn. te 2 linijki to oczywiście na jednej strunie "e1"





W świecie, w którym nikt nie jest moim królem też nie jestem - nie jestem, nie ...
Re: Gramy happysad?
17 kwi 2004 - 21:26:57
miłość, zaraz po "aham" :)

--5-------------------------------
--7---- 5----7-------------------
--7-----7----9-------------------
--5-----7----9-------------------
--5-----6----8-------------------
--5-----5----7-------------------

chyba zapisałem do góry nogami:)

Re: Gramy happysad?
17 kwi 2004 - 23:01:50
Owszem - do góry nogami i to jest to co napisałem na początku : a d e - tylko w wersji barre :) pozdrawiam
Tasior1230
Re: Gramy happysad?
24 kwi 2004 - 10:34:46
widzę że taby zaczynają ruszać
Ni i dobrze
Re: Gramy happysad?
24 kwi 2004 - 13:43:02
to moje taby :


Manewry Szczescia - d F C C
Psychologa - h a e
Ostatni Blok - e g h h

tak na dobry poczatek moze komus sie bedzie chcialo posiedziec i troszke rozgryzc te piosenki, pozdrowki!
Re: Gramy happysad?
28 kwi 2004 - 23:17:54
Bardzo robocza wersja ( jestem zmeczony i ledwo żyję :) ) więc pewnie bardzo błędna ale może komuś sie przyda:
100 lat
a C d F ( G )
Re: Gramy happysad?
30 kwi 2004 - 16:32:46
No to gramy Manewry... są już, wiem... ale mi się nudzi i zapisałem to co umim...

Intro:

E---------------------------------|----------------------------------||
B---------------------------------|----------------------------------||
G---------------------------------|----------------------------------||
D--0--0-0-3--3-0------------------|---0--0-0-3--3-0------------------||
A-----------------3--3-0-3-0-3-4--|------------------3-0-3-0-3-0-3-4-||
E---------------------------------|----------------------------------||

Później Riff grany po intrze i każdym refrenie :
x3
E----------------------------------|--------------------||
B----------------------------------|--------------------||
G-----------3--3-------------------|--------------------||
D----5--5-0-3--3-0-3--3-3-3-3-3-4--|--3-3-3-3-3-3-3-3---||
A----5--5-0-1--1-0-3--3-3-3-3-3-4--|--3-3-3-3-3-3-3-3---||
E----3--3----------1--1-1-1-1-1-2--|--1-1-1-1-1-1-1-1---||





W świecie, w którym nikt nie jest moim królem też nie jestem - nie jestem, nie ...
Re: Gramy happysad?
30 kwi 2004 - 22:01:08
Dobra ja w weekend zamieszczę całe 100lat, albo razcej linka, cyz coś, bo tego sporo bedzię :)

ps. umieszczony przeze mnie wyzęj do 100lat rozkąłd jest błędny, tam sie od B zaczyna później A e no i nie wiem co dalej :) spoko bedzie w niedziele przed 15 :) całe i poprawne
Re: Gramy happysad?
30 kwi 2004 - 22:01:39
ps. ... nie B tylko H jakiś slepy jestem ostarnio i głuchy :/
Re: Gramy happysad?
01 maj 2004 - 08:56:40
nareszcie stolat, mam nadzieje ze z solowka:)

ja moze niedlugo podam stabowane fragmenty "jeszcze" i "nocy"

qUka
Re: Gramy happysad?
01 maj 2004 - 13:00:05
ja tylko powiem ze 100lat zaczynamy od G (..aCeH) ..ale to kwestia gustu;))...pozdr
Re: Gramy happysad?
01 maj 2004 - 13:10:10
jak pisałem te posty to byłem strasznie zalatany i myslałem o czymś ( kimś :) ) innym, będzie sto lat poprawne i z solowką :) ale to jutro, bo dzisiaj nie mam czasu, zeby z kumplem przysiaść :)

pozdrawiam, dobra dobra - zwrotka idzie od H :)
Re: Gramy happysad?
02 maj 2004 - 17:15:28
Tabnąłem CAŁE "Manewry szczęścia" całe solo itp... jest do sciągnięcia z: www.themer.webpark.pl/manewry_szczescia.txt - bo nie chciałem tu zaśmiecać...:]





W świecie, w którym nikt nie jest moim królem też nie jestem - nie jestem, nie ...
PanLatawiec
Re: Gramy happysad?
02 maj 2004 - 17:48:36
Jakby komus do głowy przyszło stabowac Bakterje to odradzam...nie ma szans zrobic to poprawnie. Kolega Quka bowiem wymysla takie chwyty i takie ich łapanie ze pozal sie Boze...nie ma szans:) Dlatego podam je ja::)
zwrotka: d, a, E, a, d,a, E itd...
refren: a, E, C, G, a, E, C, G, C, E, a...itds...czyli "i tak do solowki":)Pozdro 600:)
Re: Gramy happysad?
02 maj 2004 - 19:46:50
Szymek, ta solówka to napewno z menewrów?:)) bo mi to wogole nie brzmi...:)


happysad - noc

intro:


6.-----------------------------------|
5.-----------------------------------|
4.---5-5------4--4-4-4-4-4-4----|
3.---5-5-5-5-4--4-4-4-4-4-4---|
2.---3-3-5-5-2--2-2-2-2-2-2---|
1.--------3-3------------------|


6.---------------------------------|
5.---------------------------------|
4.--7-7-----5--3--3-3-3-3-3-3-|
3.--7-7-4--5--3--3-3-3-3-3-3-|
2.--5-5-4--3--1--1-1-1-1-1-1-|
1.-------2--------------------|
X3


6.-----------------------------------|
5.-----------------------------------|
4.--5-5------7-7777777-7------|
3.--5-5-5-5-7-7777777-7------|
2.--3-3-5-5-5-5555555-5------|
1.-------3-3------------------------|


Jak każda inna noc...

6.--------------------------------------------|
5.--------------------------------------------|
4.--5--5-5-5-5-5--3--7-7-7-7-7-7-7---|
3.--5--5-5-5-5-5--3--7-7-7-7-7-7-7---|
2.--3--3-3-3-3-3--1--5-5-5-5-5-5-5---|
1.-------------------------------------------|

a teraz, niech ktoś napisze jak leci ta mini-solówka i końcówka:)


zapisywałem w innej czcionce i się przy wklejaniu trochę zniekształciło, ale wiadomo co i jak.
przy rozgryzaniu pomógl im Kuba, ale zapisałem to trochę inaczej, i nie wiem czy dobrze. brzmi chyba wporządku.
mile widziane poprawki.

Re: Gramy happysad?
02 maj 2004 - 22:21:25
Kurczę mozę i nie są dobre...hehe ale u mnie na moim rzęchu brzmią w moich rekach podobnie :P:P... jak cos wykombinuje to umieszczę, a to potrwa bo nie mam 2 strunz musyk ze mnie kiepski :/:/





W świecie, w którym nikt nie jest moim królem też nie jestem - nie jestem, nie ...
panlatawiec
Re: Gramy happysad?
03 maj 2004 - 00:37:39
Kurcze...chyba jestem dziwny, ale mnie to by sie niechialo tak klepac kresek i cyferek, zeby taba zrobic. No chyba, ze robicie to inaczej jakos...np. jakims programem:) Pozdro