Gramy happysad?

Wysłane przez Sinu 
Forum jest aktualnie w trybie tylko do odczytu. Nie można się logować ani dokonywać żadnych zmian. Zapraszamy ponownie za jakiś czas.
Re: Gramy happysad?
26 lip 2011 - 12:44:57
Oto cała solóweczka do łydki:

E---------------------------------------------------------------------
H----------10-10-10-10------------------------------------------ 2x
G------------------------------12--11--12--11--9-9------------

E-------------------------------------------------------------------
H------------------------------------------------------------------- 2x
G--------9-9-9-9-7-7-7-7-6-6-6-6-4-4---------------------

E-------------------------------------------------------------------
H-----7-7-7-5-3-2-0-0---0h2p0----7-7-7-5-3-2-0-0----
G------------------------------------------------------------------

E------------------------------------------------------------------
H-----2-2-2-3-5-7-----2-2-2-3-5/7-5/7-5/7-5/7--------
G-----------------------------------------------------------------



Hmm... mi potrzeba chwyty do zanim pójdę, tylko z wersji koncertowej tzn.
jak Kuba śpiewa: "Ale zanim pójdę... ale zanim pójdę...." to słychać tam a-moll, d-moll i potem jeszcze trzy chwyty( jest takie zejście do e-molla)

a-moll
d-moll
x
y
e-moll

potrzeba mi te chwyty x i y :)
Re: Gramy happysad?
29 lip 2011 - 20:02:31
Daj jakiś filmik, to rozkminić postaram się ;-)



"Standing together here as one, going through worse or better times -
Seems like a perfect plan for us."
kk
Re: Gramy happysad?
22 wrz 2011 - 15:23:17
Mam prośbę, ma ktoś może zapis nutowy do solówki na trąbce w piosence długa droga w dół?
Re: Gramy happysad?
14 paź 2011 - 13:30:25
Rozkminił może ktoś te nowe manewry?



[szpanerski_podpis]A bóg? Nie ma boga są tylko krzyże przy drogach...[/szpanerski_podpis]
tiny
Re: Gramy happysad?
16 paź 2011 - 15:22:10
cześć
mam takie pytanko
na akustyku/klasyku happysad się gra tak samo jak na elektryku?
czy są jakieś różnice?
Re: Gramy happysad?
16 paź 2011 - 20:52:41
no wiesz, troszeczkę jest różnica w brzmieniu, gitarę elektryczną możesz odpowiednio przesterować, nadać brzmieniu różną barwę, czego na gitarach klas/akust nie jesteś w stanie zrobić.

dużo partii w piosenkach happysadu ma przester, głównie gitara pana latawca, kuba raczej rzadziej choć zdarza się (chyba przeważnie gra na brzmieniach przypominających clean) - zaleta full tona :) i innych maleństw pod stopami.

a jeżeli chodzi o chwyty i te sprawy to chyba tak samo :) jednak pamiętaj z gitary elektrycznej wyciągniesz więcej.
tiny
Re: Gramy happysad?
17 paź 2011 - 14:11:24
zdaje sobie sprawę że z elektryków daje się wyciągać więcej
ale mi chodzi tylko w sprawie chwytów i tym podobnych czy gra się to tak samo jak na elektryku czy są jakieś zmiany
Re: Gramy happysad?
17 paź 2011 - 21:47:15
Zależy co znaczy "tak samo":
1. Jeśli chodzi o "zestaw" chwytów / tabów to można grać tak samo
2. Jeśli chodzi o komfort gry - na elektryku nie gra się tak samo jak na akustyku, bo gra się łatwiej (tudzież wygodniej - wg mnie)



"Standing together here as one, going through worse or better times -
Seems like a perfect plan for us."
Re: Gramy happysad?
17 paź 2011 - 21:58:57
No wszystko fajnie, ale tutaj gadacie o pierdołach, a ja nowe manewry potrzebuję. :P



[szpanerski_podpis]A bóg? Nie ma boga są tylko krzyże przy drogach...[/szpanerski_podpis]
tiny
Re: Gramy happysad?
18 paź 2011 - 10:10:50
może ja się trochę źle wyraziłem dzeejj_blacksideart ale mi chodziło właśnie o te zestawienie tzw "chwytów" itp itd czy się tak samo gra jak na elektryku
no ale już wszystko jasne i dzięki wielkie za pomoc wszystkim

P.S.
a jak się gra intor/wstęp w "Zanim pójdę"?
bo przejrzałem te 52 strony i nie widzę tak samo jak w żadnym opracowaniu jakie znalazłem
Re: Gramy happysad?
18 paź 2011 - 16:53:33
tiny Napisał(a):
-------------------------------------------------------
> a jak się gra intor/wstęp w "Zanim pójdę"?
> bo przejrzałem te 52 strony i nie widzę tak samo
> jak w żadnym opracowaniu jakie znalazłem

e-----------13-12-------------------------------------------|
B--13-13-13-------------------------------------------------|
G-----------------12-12-12-14-14-12-12----------------------|
D-----------------------------------------------------------|
A-----------------------------------------------------------|
E-----------------------------------------------------------|

Tą część gramy trzy razy. Ostatnia sekwencja nieznacznie różni się od trzech pierwszych:

e-----------13-12-------------------------------------------|
B--13-13-13-------------------------------------------------|
G-----------------12----------------------------------------|
D-----------------------------------------------------------|
A-----------------------------------------------------------|
E-----------------------------------------------------------|

GOOGLE nie boli, ani podobno nie można mieć na GOOGLE bana. Ale co ja tam wiem... :)



[szpanerski_podpis]A bóg? Nie ma boga są tylko krzyże przy drogach...[/szpanerski_podpis]
tiny
Re: Gramy happysad?
19 paź 2011 - 13:14:11
o dzięki wielkie bardzo :)
Re: Gramy happysad?
22 paź 2011 - 16:56:23
co do Manewrów nowych to wszystko leci na chwytach:

d moll
F dur
C dur

jeżeli chodzi o ten taki wstęp to pokombinuj, złap sobie chwyt (tylko barre) i pobaw się trochę dźwiękami, mi tak wyszło ale teraz nie mam czasu dokładnie napisać tabów :D xd
Re: Gramy happysad?
31 paź 2011 - 15:35:14
ej ma ktoś pełen zapis Noc jak każda inna ponieważ przejrzałem temat i takiej solidnie zrobionej to nie ma np. nie ma fragmentu 0:17-0:21. Mam też wątpliwości co do fragment 3:24 - 3:38 - jak on wygląda ? To co poniżej skopiowałem z tego tematu i poskładałem.
Noc jak każda inna

intro:

A---------------------------------|
H---------------------------------|
G---5-5------4--4-4-4-4-4-4---|
D---5-5-5-5-4--4-4-4-4-4-4---|
A---3-3-5-5-2--2-2-2-2-2-2---|
E---------3-3---------------------|

E---------------------------------|
H---------------------------------|
G--9-9-4--5--7-7-7-7-7-7-----|
D--9-9-4--5--7-7-7-7-7-7-----|
A--7-7-2--3--5-5-5-5-5-5-----|
E---------------------------------|
X3

zwrotka

E---------------------------------|
H--------------------------------|
G--5-5--7-7---9999999--------|
D--5-5--5-5---9999999--------|
A--3-3--5-5---7777777--------|
E--------------------------------|

Noc jak każda inna....

E---------------------------------------------------|
H--------------------------------------------------|
G--77777--9-9-9-5-5-5---------------5-5--------|
D--77777--9-9-9-5-5-5-5-5-5--2-2-5-5--------|
A--55555--7-7-7-3-3-3-5-5-5--2-2-3-3--------|
E-----------------------------3-3-3--0-0------------|

Ale wiedz że nie powiem.....

E--------------------------------------------------|
H-------------------------------------------------|
G--9-9--5-5--7777------------------------------|
D--9-9--5-5--7777--5-5--7-7--9999-----------|
A--7-7--3-3--5555--5-5--7-7--9999-----------|
E------------------------3-3--5-5--7777-----------|

I tak..... (do końca)

-----
Tak mi sie przynajmniej wydaje ;-)

ten motyw ok 2,52min(chociaż tu troche poprawilem, ale nie mam pewnosci czy to dobrze, zobacz czy czy to dla Ciebie lepsza wersja)
E--------------------------------------------------------------------------------------
H-8-8-7-8-7-5-5-5-5-8-8-7-8-10-5-10-8-5-5||-8-8-7-8-7-5-5-5-5-10-10-8-8-5
G--------------------------------------------------------------------------------------
D--------------------------------------------------------------------------------------
A--------------------------------------------------------------------------------------
E--------------------------------------------------------------------------------------

3,55min
E-----------------------------------------------------
H-----------------------------------------------------
G-9-9-7-9-9-5-5-7-7-7-7-5-4-4-2-2-4-------------------
D-----------------------------------------------------
A-----------------------------------------------------
E-----------------------------------------------------
Re: Gramy happysad?
01 lis 2011 - 17:34:47
Motyw z nowych Manewrów niedługo na chords.pl :)
Re: Gramy happysad?
08 lis 2011 - 14:08:44
Ok.



Zmieniany 1 raz(y). Ostatnia zmiana 2011-11-08 14:09 przez darbal.
Re: Gramy happysad?
04 gru 2011 - 11:39:10
Hej. Czy mógłby ktoś podrzucić rozpisaną tabulature do "Taką wodą być"?? Będę bardzo wdzięczna.
Z góry ślicznie dziękuję.
Pozdrawiam.
GalAnonim
Re: Gramy happysad?
07 gru 2011 - 20:36:49
google nie boli.
Re: Gramy happysad?
10 gru 2011 - 15:18:15
na google brak. plx pomóżcie
Re: Gramy happysad?
11 gru 2011 - 18:13:53
Czy "nic nie zmieniać" jest grane na jakiś przesterach?
Jakkolwiek nie próbuję grać to nie brzmi mi to tak samo.
Choć może wynika to tylko z moich nieumiejętności...

happysadowo.cba.pl